ROMNation Community Forums
Register Calendar Team Members Search Frequently Asked Questions Go to the Main Page

ROMNation Community Forums » All Guitar Tabs » Guitar Talk » Looking for this one,plz!! » Hello Guest [Login|Register]
Last Post | First Unread Post Print Page | Recommend to a Friend | Add Thread to Favorites
Post New Thread Post Reply
Go to the bottom of this page Looking for this one,plz!!  
Author
Post « Previous Thread | Next Thread »
arasem


Registration Date: 01-05-2005
Posts: 4

Arrow Looking for this one,plz!! Reply to this Post Post Reply with Quote Edit/Delete Posts Report Post to a Moderator       Go to the top of this page

Hey guys,
I am looking for this music (guitar tab) so any help will be really appreciated.
It is called "hymn to red october "
from the movie the haunt of red october. So if you know the tab plz share it.
thanks alot
01-05-2005 03:58 arasem is offline Send an Email to arasem Search for Posts by arasem Add arasem to your Buddy List
koth
a)


images/avatars/avatar-941.jpg

Registration Date: 12-20-2004
Posts: 97

Reply to this Post Post Reply with Quote Edit/Delete Posts Report Post to a Moderator       Go to the top of this page

sorry, couldnt find one.
but if you have the song, tell me where to download it then i can write down guitar tab for you.

__________________
no, no sig for you.
01-13-2005 03:42 koth is offline Send an Email to koth Search for Posts by koth Add koth to your Buddy List
Bighouse $posts[username] is a male


images/avatars/avatar-732.gif

Registration Date: 01-14-2005
Posts: 14
Location: Missouri,USA

Reply to this Post Post Reply with Quote Edit/Delete Posts Report Post to a Moderator       Go to the top of this page

look on ultimate-guitar.com

__________________
http://www.metallicaworld.co.uk/images/logos/metlogo16.gif

This post has been edited $posts[editcount] time(s), it was last edited by $posts[editor] on 01-14-2005 12:25.

01-14-2005 12:17 Bighouse is offline Send an Email to Bighouse Search for Posts by Bighouse Add Bighouse to your Buddy List
arasem


Registration Date: 01-05-2005
Posts: 4

Thread Starter Thread Started by $thread[starter]
Wink Here is the music link if you can write it Reply to this Post Post Reply with Quote Edit/Delete Posts Report Post to a Moderator       Go to the top of this page

Hello There,
I searched for music and I found it. I wish if if you can write a tab for it. I would really appreciate it.
The link is :
http://www.garyw0001.com/GMIDI/Red_OctoberD.MID

The main part I am interest is the part at the end. Listen to it and I am sure you will know what I mean.
Thanks alot dude
01-25-2005 02:48 arasem is offline Send an Email to arasem Search for Posts by arasem Add arasem to your Buddy List
koth
a)


images/avatars/avatar-941.jpg

Registration Date: 12-20-2004
Posts: 97

Reply to this Post Post Reply with Quote Edit/Delete Posts Report Post to a Moderator       Go to the top of this page

no problem dude but it'll take me hours to do so.
maybe sometime tomorrow i'll post it here.

__________________
no, no sig for you.
01-25-2005 07:51 koth is offline Send an Email to koth Search for Posts by koth Add koth to your Buddy List
koth
a)


images/avatars/avatar-941.jpg

Registration Date: 12-20-2004
Posts: 97

Reply to this Post Post Reply with Quote Edit/Delete Posts Report Post to a Moderator       Go to the top of this page

here it is.
im not quite sure which part you're talking about but the whole song is there.
im not a professional tabber so maybe there are some mistakes there.
if you have question, im always here Smile

|-0--0--0----|---------8----|-0----------|-------8----|
|-0--0--0----|------8-------|-0----0--0--|--8----8----|
|-0--0--0----|--8---8-------|-0----0--0--|--8---------|
|-2----------|-10--10-------|-2----4-----|-10---------|
|-2----------|-10-----------|-2----------|------------|
|-0----------|--8-----------|-0----------|--8---------|



|-4----4----|-0------------|-0--0-----------0----|
|-4----4----|-0----------0-|-1--1---------1------|
|-4----4----|-0-----0------|-0--0-------0--------|
|-6----6----|-2--2---------|-2-----4--2----------|
|-6----6----|-2------------|---------------------|
|------4----|-0------------|---------------------|



|-2--------4---|-3--6--5-----|-3-5-6-3-5--6-8-|
|-4-----4----4-|----3--6--6--|-----3-3-6------|
|-3--3---------|-3-----------|-3--------------|
|-1------------|-------0-----|---------0------|
|--------------|-------------|----------------|
|--------------|-3-----------|-3--------------|



|-10--6-6--8--------|-3--3-6-6-8-5-----|
|--6--6-6-10--10-10-|-4--4-4-7---------|
|-------------10-10-|----3-3-5-----7---|
|--8--8-8-10--10-10-|-5----------------|
|----------8--------|-3------5---------|
|--6----------------|------------------|


|-3-----------|---------------|-----------3-1-|
|-3-----------|---------3-3-1-|---------------|
|-3-----------|---------------|-3-------3-----|
|-5-----------|---------------|---------------|
|-5-----------|---------------|---------------|
|-3--3--3--3--|-3--3--3---3---|-3--3--3---3---|



|---------------|-----------------|
|-4--4----4-4-3-|-1-----------1-4-|
|---------------|-------3-2-3-----|
|---------------|-----------------|
|---------------|---------0---0---|
|-3--3--3---3---|-3---3---2---2---|



|---------------|---------------|
|-3---------3---|---------------|
|---------2---2-|-3-------------|
|---------------|---------------|
|---------------|---------------|
|-3--3--3---3---|-3--3--3--3----|
fade out.

__________________
no, no sig for you.
01-25-2005 12:09 koth is offline Send an Email to koth Search for Posts by koth Add koth to your Buddy List
arasem


Registration Date: 01-05-2005
Posts: 4

Thread Starter Thread Started by $thread[starter]
Thumb Up! Reply to this Post Post Reply with Quote Edit/Delete Posts Report Post to a Moderator       Go to the top of this page

Thank u so much for ur help. I really appreciate it. I will try working on it
01-26-2005 04:24 arasem is offline Send an Email to arasem Search for Posts by arasem Add arasem to your Buddy List
koth
a)


images/avatars/avatar-941.jpg

Registration Date: 12-20-2004
Posts: 97

Reply to this Post Post Reply with Quote Edit/Delete Posts Report Post to a Moderator       Go to the top of this page

anytime.
one more thing, because the song isnt really for guitar, some pitch is too high so i change it slightly. if something doesnt sound quite right or is too hard to play tell me, i can change chord position.

__________________
no, no sig for you.
01-28-2005 07:36 koth is offline Send an Email to koth Search for Posts by koth Add koth to your Buddy List
arasem


Registration Date: 01-05-2005
Posts: 4

Thread Starter Thread Started by $thread[starter]
some feedback :) Reply to this Post Post Reply with Quote Edit/Delete Posts Report Post to a Moderator       Go to the top of this page

I don't really know how to thank you.

The part that I was mostly interested in was this one u wrote:


|-3-----------|---------------|-----------3-1-|
|-3-----------|---------3-3-1-|---------------|
|-3-----------|---------------|-3-------3-----|
|-5-----------|---------------|---------------|
|-5-----------|---------------|---------------|
|-3--3--3--3--|-3--3--3---3---|-3--3--3---3---|



|---------------|-----------------|
|-4--4----4-4-3-|-1-----------1-4-|
|---------------|-------3-2-3-----|
|---------------|-----------------|
|---------------|---------0---0---|
|-3--3--3---3---|-3---3---2---2---|



|---------------|---------------|
|-3---------3---|---------------|
|---------2---2-|-3-------------|
|---------------|---------------|
|---------------|---------------|
|-3--3--3---3---|-3--3--3--3----| fade out.


I dont think the second part with the whole bunch of 4 (s) is working well with me. The ptich was kinda high so the tranistion from the previous fist part was not really smooth. I was wondering if you can make this part better (I am kinda noob to the guitar so I am kinda fond of single number at atime Smile ))
would u be able to improve this part little bt while keeping teh easiness of playing? if you cant thats ok, I really thank u for ur time though
01-29-2005 20:33 arasem is offline Send an Email to arasem Search for Posts by arasem Add arasem to your Buddy List
koth
a)


images/avatars/avatar-941.jpg

Registration Date: 12-20-2004
Posts: 97

Reply to this Post Post Reply with Quote Edit/Delete Posts Report Post to a Moderator       Go to the top of this page

you mean this part?
|-3--6--5-----|-3-5-6-3-5--6-8-|
|----3--6--6--|-----3-3-6------|
|-3-----------|-3--------------|
|-1------------|-------0-----|---------0------|
|-------------|----------------|
|-3-----------|-3--------------|



|-10--6-6--8--------|-3--3-6-6-8-5-----|
|--6--6-6-10--10-10-|-4--4-4-7---------|
|-------------10-10-|----3-3-5-----7---|
|--8--8-8-10--10-10-|-5----------------|
|----------8--------|-3------5---------|
|--6----------------|------------------|

well, i cut other notes off and leave meoldy and bass line.
|-------------|----------------|
|-------------|--------------1-|
|-0--3--2-----|-0-2-3-0-2--3---|
|-------0--3--|---------0------|
|-------------|----------------|
|-3-----------|-3--------------|



|-------------------|------------------|
|--3-------1--------|----------1-------|
|-----3-3------2-2--|-0--0-3-3---2-----|
|----------3--------|--------0-----3---|
|--1----------------|-3----------------|
|-------------------|------------------|


does it help Smile

__________________
no, no sig for you.
01-31-2005 03:43 koth is offline Send an Email to koth Search for Posts by koth Add koth to your Buddy List
zappaonthecrappa $posts[username] is a male


Registration Date: 04-29-2005
Posts: 2
Location: earth?

maybe youll have luck Reply to this Post Post Reply with Quote Edit/Delete Posts Report Post to a Moderator       Go to the top of this page

the entire solo for the muffin man by frank vincet zappa album bongo fury if not intresteedConfused SP) IF YOU COULD FIND SOMEONE WHO IS THNX
04-29-2005 07:20 zappaonthecrappa is offline Send an Email to zappaonthecrappa Search for Posts by zappaonthecrappa Add zappaonthecrappa to your Buddy List
Tree Structure | Board Structure
Jump to:
Post New Thread Post Reply
ROMNation Community Forums » All Guitar Tabs » Guitar Talk » Looking for this one,plz!!

Powered by Burning Board 2.2.2 © 2001-2004 WoltLab GmbH